  0
SECTION
  2
HEADER
  9
$ACADVER
  1
AC1015
  9
$ACADMAINTVER
 70
     6
  9
$DWGCODEPAGE
  3
ANSI_1254
  9
$INSBASE
 10
0.0
 20
0.0
 30
0.0
  9
$EXTMIN
 10
0.0
 20
0.0
 30
0.0
  9
$EXTMAX
 10
279.4
 20
215.9
 30
0.0
  9
$LIMMIN
 10
0.0
 20
0.0
  9
$LIMMAX
 10
279.4
 20
215.9
  9
$ORTHOMODE
 70
     0
  9
$REGENMODE
 70
     1
  9
$FILLMODE
 70
     1
  9
$QTEXTMODE
 70
     0
  9
$MIRRTEXT
 70
     1
  9
$LTSCALE
 40
1.0
  9
$ATTMODE
 70
     1
  9
$TEXTSIZE
 40
3.5
  9
$TRACEWID
 40
1.0
  9
$TEXTSTYLE
  7
Standard
  9
$CLAYER
  8
0
  9
$CELTYPE
  6
ByLayer
  9
$CECOLOR
 62
   256
  9
$CELTSCALE
 40
1.0
  9
$DISPSILH
 70
     0
  9
$DIMSCALE
 40
1.0
  9
$DIMASZ
 40
3.5
  9
$DIMEXO
 40
1.0
  9
$DIMDLI
 40
3.75
  9
$DIMRND
 40
0.0
  9
$DIMDLE
 40
0.0
  9
$DIMEXE
 40
1.0
  9
$DIMTP
 40
0.0
  9
$DIMTM
 40
0.0
  9
$DIMTXT
 40
3.5
  9
$DIMCEN
 40
2.5
  9
$DIMTSZ
 40
0.0
  9
$DIMTOL
 70
     0
  9
$DIMLIM
 70
     0
  9
$DIMTIH
 70
     1
  9
$DIMTOH
 70
     1
  9
$DIMSE1
 70
     0
  9
$DIMSE2
 70
     0
  9
$DIMTAD
 70
     1
  9
$DIMZIN
 70
     0
  9
$DIMBLK
  1

  9
$DIMASO
 70
     1
  9
$DIMSHO
 70
     1
  9
$DIMPOST
  1

  9
$DIMAPOST
  1

  9
$DIMALT
 70
     0
  9
$DIMALTD
 70
     3
  9
$DIMALTF
 40
0.0393700787
  9
$DIMLFAC
 40
1.0
  9
$DIMTOFL
 70
     1
  9
$DIMTVP
 40
0.0
  9
$DIMTIX
 70
     0
  9
$DIMSOXD
 70
     0
  9
$DIMSAH
 70
     0
  9
$DIMBLK1
  1

  9
$DIMBLK2
  1

  9
$DIMSTYLE
  2
ISO-25
  9
$DIMCLRD
 70
     0
  9
$DIMCLRE
 70
     0
  9
$DIMCLRT
 70
     0
  9
$DIMTFAC
 40
1.0
  9
$DIMGAP
 40
1.524
  9
$DIMJUST
 70
     0
  9
$DIMSD1
 70
     0
  9
$DIMSD2
 70
     0
  9
$DIMTOLJ
 70
     0
  9
$DIMTZIN
 70
     0
  9
$DIMALTZ
 70
     0
  9
$DIMALTTZ
 70
     0
  9
$DIMUPT
 70
     0
  9
$DIMDEC
 70
     2
  9
$DIMTDEC
 70
     2
  9
$DIMALTU
 70
     2
  9
$DIMALTTD
 70
     3
  9
$DIMTXSTY
  7
Standard
  9
$DIMAUNIT
 70
     0
  9
$DIMADEC
 70
     2
  9
$DIMALTRND
 40
0.0
  9
$DIMAZIN
 70
     0
  9
$DIMDSEP
 70
    44
  9
$DIMATFIT
 70
     3
  9
$DIMFRAC
 70
     0
  9
$DIMLDRBLK
  1

  9
$DIMLUNIT
 70
     2
  9
$DIMLWD
 70
    -2
  9
$DIMLWE
 70
    -2
  9
$DIMTMOVE
 70
     0
  9
$LUNITS
 70
     2
  9
$LUPREC
 70
     2
  9
$SKETCHINC
 40
1.0
  9
$FILLETRAD
 40
10.0
  9
$AUNITS
 70
     0
  9
$AUPREC
 70
     2
  9
$MENU
  1
.
  9
$ELEVATION
 40
0.0
  9
$PELEVATION
 40
0.0
  9
$THICKNESS
 40
0.0
  9
$LIMCHECK
 70
     0
  9
$CHAMFERA
 40
0.0
  9
$CHAMFERB
 40
0.0
  9
$CHAMFERC
 40
0.0
  9
$CHAMFERD
 40
0.0
  9
$SKPOLY
 70
     0
  9
$TDCREATE
 40
2458985.68275956
  9
$TDUCREATE
 40
2458985.55775956
  9
$TDUPDATE
 40
2458985.68275993
  9
$TDUUPDATE
 40
2458985.55775993
  9
$TDINDWG
 40
0.0000000116
  9
$TDUSRTIMER
 40
0.0000000116
  9
$USRTIMER
 70
     1
  9
$ANGBASE
 50
0.0
  9
$ANGDIR
 70
     0
  9
$PDMODE
 70
     0
  9
$PDSIZE
 40
-1.0
  9
$PLINEWID
 40
0.0
  9
$SPLFRAME
 70
     0
  9
$SPLINETYPE
 70
     6
  9
$SPLINESEGS
 70
     8
  9
$HANDSEED
  5
CB
  9
$SURFTAB1
 70
     6
  9
$SURFTAB2
 70
     6
  9
$SURFTYPE
 70
     6
  9
$SURFU
 70
     6
  9
$SURFV
 70
     6
  9
$UCSBASE
  2

  9
$UCSNAME
  2

  9
$UCSORG
 10
0.0
 20
0.0
 30
0.0
  9
$UCSXDIR
 10
1.0
 20
0.0
 30
0.0
  9
$UCSYDIR
 10
0.0
 20
1.0
 30
0.0
  9
$UCSORTHOREF
  2

  9
$UCSORTHOVIEW
 70
     0
  9
$UCSORGTOP
 10
0.0
 20
0.0
 30
0.0
  9
$UCSORGBOTTOM
 10
0.0
 20
0.0
 30
0.0
  9
$UCSORGLEFT
 10
0.0
 20
0.0
 30
0.0
  9
$UCSORGRIGHT
 10
0.0
 20
0.0
 30
0.0
  9
$UCSORGFRONT
 10
0.0
 20
0.0
 30
0.0
  9
$UCSORGBACK
 10
0.0
 20
0.0
 30
0.0
  9
$PUCSBASE
  2

  9
$PUCSNAME
  2

  9
$PUCSORG
 10
0.0
 20
0.0
 30
0.0
  9
$PUCSXDIR
 10
1.0
 20
0.0
 30
0.0
  9
$PUCSYDIR
 10
0.0
 20
1.0
 30
0.0
  9
$PUCSORTHOREF
  2

  9
$PUCSORTHOVIEW
 70
     0
  9
$PUCSORGTOP
 10
0.0
 20
0.0
 30
0.0
  9
$PUCSORGBOTTOM
 10
0.0
 20
0.0
 30
0.0
  9
$PUCSORGLEFT
 10
0.0
 20
0.0
 30
0.0
  9
$PUCSORGRIGHT
 10
0.0
 20
0.0
 30
0.0
  9
$PUCSORGFRONT
 10
0.0
 20
0.0
 30
0.0
  9
$PUCSORGBACK
 10
0.0
 20
0.0
 30
0.0
  9
$USERI1
 70
     0
  9
$USERI2
 70
     0
  9
$USERI3
 70
     0
  9
$USERI4
 70
     0
  9
$USERI5
 70
     0
  9
$USERR1
 40
0.0
  9
$USERR2
 40
0.0
  9
$USERR3
 40
0.0
  9
$USERR4
 40
0.0
  9
$USERR5
 40
0.0
  9
$WORLDVIEW
 70
     1
  9
$SHADEDGE
 70
     3
  9
$SHADEDIF
 70
    70
  9
$TILEMODE
 70
     1
  9
$MAXACTVP
 70
    64
  9
$PINSBASE
 10
0.0
 20
0.0
 30
0.0
  9
$PLIMCHECK
 70
     0
  9
$PEXTMIN
 10
1.0000000000E+20
 20
1.0000000000E+20
 30
1.0000000000E+20
  9
$PEXTMAX
 10
-1.0000000000E+20
 20
-1.0000000000E+20
 30
-1.0000000000E+20
  9
$PLIMMIN
 10
0.0
 20
0.0
  9
$PLIMMAX
 10
420.0
 20
297.0
  9
$UNITMODE
 70
     0
  9
$VISRETAIN
 70
     1
  9
$PLINEGEN
 70
     0
  9
$PSLTSCALE
 70
     1
  9
$TREEDEPTH
 70
  3020
  9
$CMLSTYLE
  2
Standard
  9
$CMLJUST
 70
     0
  9
$CMLSCALE
 40
20.0
  9
$PROXYGRAPHICS
 70
     1
  9
$MEASUREMENT
 70
     1
  9
$CELWEIGHT
370
    -1
  9
$ENDCAPS
280
     0
  9
$JOINSTYLE
280
     0
  9
$LWDISPLAY
290
     1
  9
$INSUNITS
 70
     4
  9
$HYPERLINKBASE
  1

  9
$STYLESHEET
  1

  9
$XEDIT
290
     1
  9
$CEPSNTYPE
380
     0
  9
$PSTYLEMODE
290
     1
  9
$FINGERPRINTGUID
  2
{7e90c792-b869-4eda-aec6-07aabf4ce866}
  9
$VERSIONGUID
  2
{FAEB1C32-E019-11D5-929B-00C0DF256EC4}
  9
$EXTNAMES
290
     1
  9
$PSVPSCALE
 40
0.0
  9
$OLESTARTUP
290
     0
  0
ENDSEC
  0
SECTION
  2
CLASSES
  0
CLASS
  1
ACDBDICTIONARYWDFLT
  2
AcDbDictionaryWithDefault
  3
ObjectDBX Classes
 90
        0
280
     0
281
     0
  0
CLASS
  1
VISUALSTYLE
  2
AcDbVisualStyle
  3
ObjectDBX Classes
 90
     4095
280
     0
281
     0
  0
CLASS
  1
MATERIAL
  2
AcDbMaterial
  3
ObjectDBX Classes
 90
     1153
280
     0
281
     0
  0
CLASS
  1
SCALE
  2
AcDbScale
  3
ObjectDBX Classes
 90
     1153
280
     0
281
     0
  0
CLASS
  1
TABLESTYLE
  2
AcDbTableStyle
  3
ObjectDBX Classes
 90
     4095
280
     0
281
     0
  0
CLASS
  1
MLEADERSTYLE
  2
AcDbMLeaderStyle
  3
ACDB_MLEADERSTYLE_CLASS
 90
     4095
280
     0
281
     0
  0
CLASS
  1
SUN
  2
AcDbSun
  3
SCENEOE
 90
     1153
280
     0
281
     0
  0
CLASS
  1
ACDBPLACEHOLDER
  2
AcDbPlaceHolder
  3
ObjectDBX Classes
 90
        0
280
     0
281
     0
  0
CLASS
  1
LAYOUT
  2
AcDbLayout
  3
ObjectDBX Classes
 90
        0
280
     0
281
     0
  0
ENDSEC
  0
SECTION
  2
TABLES
  0
TABLE
  2
VPORT
  5
8
330
0
100
AcDbSymbolTable
 70
     1
  0
VPORT
  5
29
330
8
100
AcDbSymbolTableRecord
100
AcDbViewportTableRecord
  2
*Active
 70
     0
 10
0.0
 20
0.0
 11
1.0
 21
1.0
 12
139.7
 22
107.95
 13
0.0
 23
0.0
 14
10.0
 24
10.0
 15
10.0
 25
10.0
 16
0.0
 26
0.0
 36
1.0
 17
0.0
 27
0.0
 37
0.0
 40
215.9
 41
1.2941176471
 42
50.0
 43
0.0
 44
0.0
 50
0.0
 51
0.0
 71
     0
 72
  2000
 73
     1
 74
     3
 75
     0
 76
     0
 77
     0
 78
     0
281
     0
 65
     1
110
0.0
120
0.0
130
0.0
111
1.0
121
0.0
131
0.0
112
0.0
122
1.0
132
0.0
 79
     0
146
0.0
  0
ENDTAB
  0
TABLE
  2
LTYPE
  5
5
330
0
100
AcDbSymbolTable
 70
     6
  0
LTYPE
  5
14
330
5
100
AcDbSymbolTableRecord
100
AcDbLinetypeTableRecord
  2
ByBlock
 70
     0
  3

 72
    65
 73
     0
 40
0.0
  0
LTYPE
  5
15
330
5
100
AcDbSymbolTableRecord
100
AcDbLinetypeTableRecord
  2
ByLayer
 70
     0
  3

 72
    65
 73
     0
 40
0.0
  0
LTYPE
  5
16
330
5
100
AcDbSymbolTableRecord
100
AcDbLinetypeTableRecord
  2
Continuous
 70
     0
  3
Solid line
 72
    65
 73
     0
 40
0.0
  0
LTYPE
  5
6E
330
5
100
AcDbSymbolTableRecord
100
AcDbLinetypeTableRecord
  2
HIDDEN
 70
     0
  3
Hidden __ __ __ __ __ __ __ __ __ __ __ __ __ __
 72
    65
 73
     2
 40
1.905
 49
1.27
 74
     0
 49
-0.635
 74
     0
  0
LTYPE
  5
6F
330
5
100
AcDbSymbolTableRecord
100
AcDbLinetypeTableRecord
  2
PHANTOM
 70
     0
  3
Phantom ______  __  __  ______  __  __  ______
 72
    65
 73
     6
 40
12.7
 49
6.35
 74
     0
 49
-1.27
 74
     0
 49
1.27
 74
     0
 49
-1.27
 74
     0
 49
1.27
 74
     0
 49
-1.27
 74
     0
  0
LTYPE
  5
70
330
5
100
AcDbSymbolTableRecord
100
AcDbLinetypeTableRecord
  2
CENTER
 70
     0
  3
Center ____ _ ____ _ ____ _ ____ _ ____ _ ____
 72
    65
 73
     4
 40
10.16
 49
6.35
 74
     0
 49
-1.27
 74
     0
 49
1.27
 74
     0
 49
-1.27
 74
     0
  0
LTYPE
  5
71
330
5
100
AcDbSymbolTableRecord
100
AcDbLinetypeTableRecord
  2
CENTERX2
 70
     0
  3
Center (2x) ________  __  ________  __  _____
 72
    65
 73
     4
 40
20.32
 49
12.7
 74
     0
 49
-2.54
 74
     0
 49
2.54
 74
     0
 49
-2.54
 74
     0
  0
LTYPE
  5
72
330
5
100
AcDbSymbolTableRecord
100
AcDbLinetypeTableRecord
  2
DOT2
 70
     0
  3
Dot (.5x) ........................................
 72
    65
 73
     2
 40
0.635
 49
0.0
 74
     0
 49
-0.635
 74
     0
  0
ENDTAB
  0
TABLE
  2
LAYER
  5
2
330
0
100
AcDbSymbolTable
 70
    17
  0
LAYER
  5
10
330
2
100
AcDbSymbolTableRecord
100
AcDbLayerTableRecord
  2
0
 70
     0
 62
     7
  6
Continuous
370
    -3
390
F
  0
LAYER
  5
73
330
2
100
AcDbSymbolTableRecord
100
AcDbLayerTableRecord
  2
FORMAT
 70
     0
 62
     7
  6
Continuous
370
    -3
390
F
  0
LAYER
  5
74
330
2
100
AcDbSymbolTableRecord
100
AcDbLayerTableRecord
  2
YARDIMCI_GEOMETRI
 70
     0
 62
    -6
  6
Continuous
290
     0
370
    -3
390
F
  0
LAYER
  5
75
330
2
100
AcDbSymbolTableRecord
100
AcDbLayerTableRecord
  2
SAYFA_CERCEVESI
 70
     0
 62
     7
  6
Continuous
370
    25
390
F
  0
LAYER
  5
76
330
2
100
AcDbSymbolTableRecord
100
AcDbLayerTableRecord
  2
ANTET
 70
     0
 62
     7
  6
Continuous
370
    -3
390
F
  0
LAYER
  5
77
330
2
100
AcDbSymbolTableRecord
100
AcDbLayerTableRecord
  2
OLCU
 70
     0
 62
   150
  6
Continuous
370
    -3
390
F
  0
LAYER
  5
78
330
2
100
AcDbSymbolTableRecord
100
AcDbLayerTableRecord
  2
METIN
 70
     0
 62
    96
  6
Continuous
370
    -3
390
F
  0
LAYER
  5
79
330
2
100
AcDbSymbolTableRecord
100
AcDbLayerTableRecord
  2
BALON
 70
     0
 62
     5
  6
Continuous
370
    -3
390
F
  0
LAYER
  5
7A
330
2
100
AcDbSymbolTableRecord
100
AcDbLayerTableRecord
  2
VURGU
 70
     0
 62
     7
  6
Continuous
370
    -3
390
F
  0
LAYER
  5
7B
330
2
100
AcDbSymbolTableRecord
100
AcDbLayerTableRecord
  2
SILIK
 70
     0
 62
     7
  6
Continuous
370
    -3
390
F
  0
LAYER
  5
7C
330
2
100
AcDbSymbolTableRecord
100
AcDbLayerTableRecord
  2
MODEL
 70
     0
 62
     7
  6
Continuous
370
    -3
390
F
  0
LAYER
  5
7D
330
2
100
AcDbSymbolTableRecord
100
AcDbLayerTableRecord
  2
DETAYLANDıRMA
 70
     0
 62
   190
  6
Continuous
370
    -3
390
F
  0
LAYER
  5
7E
330
2
100
AcDbSymbolTableRecord
100
AcDbLayerTableRecord
  2
TOLERANS
 70
     0
 62
   230
  6
Continuous
370
    -3
390
F
  0
LAYER
  5
7F
330
2
100
AcDbSymbolTableRecord
100
AcDbLayerTableRecord
  2
MERKEZ_CIZGILERI
 70
     0
 62
    30
  6
Continuous
370
    -3
390
F
  0
LAYER
  5
80
330
2
100
AcDbSymbolTableRecord
100
AcDbLayerTableRecord
  2
KESIT-DETAY_CIZGILERI
 70
     0
 62
     7
  6
Continuous
370
    -3
390
F
  0
LAYER
  5
81
330
2
100
AcDbSymbolTableRecord
100
AcDbLayerTableRecord
  2
\U+041E\U+0421\U+0415\U+0412\U+042B\U+0415
 70
     0
 62
     7
  6
Continuous
370
    -3
390
F
  0
LAYER
  5
82
330
2
100
AcDbSymbolTableRecord
100
AcDbLayerTableRecord
  2
\U+0412\U+041E\U+0414\U+042F\U+041D\U+042B\U+0415_\U+0417\U+041D\U+0410\U+041A\U+0418
 70
     0
 62
    11
  6
Continuous
370
    -3
390
F
  0
ENDTAB
  0
TABLE
  2
STYLE
  5
3
330
0
100
AcDbSymbolTable
 70
     1
  0
STYLE
  5
11
330
3
100
AcDbSymbolTableRecord
100
AcDbTextStyleTableRecord
  2
Standard
 70
     0
 40
0.0
 41
1.0
 50
0.0
 71
     0
 42
3.5
  3
txt
  4

  0
ENDTAB
  0
TABLE
  2
VIEW
  5
6
330
0
100
AcDbSymbolTable
 70
     0
  0
ENDTAB
  0
TABLE
  2
UCS
  5
7
330
0
100
AcDbSymbolTable
 70
     0
  0
ENDTAB
  0
TABLE
  2
APPID
  5
9
330
0
100
AcDbSymbolTable
 70
     1
  0
APPID
  5
12
330
9
100
AcDbSymbolTableRecord
100
AcDbRegAppTableRecord
  2
ACAD
 70
     0
  0
ENDTAB
  0
TABLE
  2
DIMSTYLE
  5
A
330
0
100
AcDbSymbolTable
 70
     1
100
AcDbDimStyleTable
  0
DIMSTYLE
105
27
330
A
100
AcDbSymbolTableRecord
100
AcDbDimStyleTableRecord
  2
ISO-25
 70
     0
 41
2.5
 42
0.625
 43
3.75
 44
1.25
 73
     0
 74
     0
 77
     1
 78
     8
140
2.5
141
2.5
143
0.0393700787
147
0.625
171
     3
172
     1
178
     0
271
     2
272
     2
274
     3
278
    44
283
     0
284
     8
340
11
  0
ENDTAB
  0
TABLE
  2
BLOCK_RECORD
  5
1
330
0
100
AcDbSymbolTable
 70
     3
  0
BLOCK_RECORD
  5
1F
330
1
100
AcDbSymbolTableRecord
100
AcDbBlockTableRecord
  2
*Model_Space
340
22
  0
BLOCK_RECORD
  5
1B
330
1
100
AcDbSymbolTableRecord
100
AcDbBlockTableRecord
  2
*Paper_Space
340
1E
  0
BLOCK_RECORD
  5
23
330
1
100
AcDbSymbolTableRecord
100
AcDbBlockTableRecord
  2
*Paper_Space0
340
26
  0
BLOCK_RECORD
  5
88
330
1
100
AcDbSymbolTableRecord
100
AcDbBlockTableRecord
  2
SW_CENTERMARKSYMBOL_0
340
0
102
{BLKREFS
331
93
102
}
  0
BLOCK_RECORD
  5
B2
330
1
100
AcDbSymbolTableRecord
100
AcDbBlockTableRecord
  2
SW_CENTERMARKSYMBOL_1
340
0
102
{BLKREFS
331
BD
102
}
  0
ENDTAB
  0
ENDSEC
  0
SECTION
  2
BLOCKS
  0
BLOCK
  5
20
330
1F
100
AcDbEntity
  8
0
100
AcDbBlockBegin
  2
*Model_Space
 70
     0
 10
0.0
 20
0.0
 30
0.0
  3
*Model_Space
  1

  0
ENDBLK
  5
21
330
1F
100
AcDbEntity
  8
0
100
AcDbBlockEnd
  0
BLOCK
  5
1C
330
1B
100
AcDbEntity
 67
     1
  8
0
100
AcDbBlockBegin
  2
*Paper_Space
 70
     0
 10
0.0
 20
0.0
 30
0.0
  3
*Paper_Space
  1

  0
ENDBLK
  5
1D
330
1B
100
AcDbEntity
 67
     1
  8
0
100
AcDbBlockEnd
  0
BLOCK
  5
24
330
23
100
AcDbEntity
  8
0
100
AcDbBlockBegin
  2
*Paper_Space0
 70
     0
 10
0.0
 20
0.0
 30
0.0
  3
*Paper_Space0
  1

  0
ENDBLK
  5
25
330
23
100
AcDbEntity
  8
0
100
AcDbBlockEnd
  0
BLOCK
  5
89
330
88
100
AcDbEntity
  8
0
100
AcDbBlockBegin
  2
SW_CENTERMARKSYMBOL_0
 70
     0
 10
0.0
 20
0.0
 30
0.0
  3
SW_CENTERMARKSYMBOL_0
  1

  0
LINE
  5
8B
330
88
100
AcDbEntity
  8
FORMAT
 62
     0
100
AcDbLine
 10
0.0
 20
0.0
 30
0.0
 11
0.0
 21
2.5
 31
0.0
  0
LINE
  5
8C
330
88
100
AcDbEntity
  8
FORMAT
 62
     0
100
AcDbLine
 10
0.0
 20
0.0
 30
0.0
 11
-2.5
 21
0.0
 31
0.0
  0
LINE
  5
8D
330
88
100
AcDbEntity
  8
FORMAT
 62
     0
100
AcDbLine
 10
0.0
 20
0.0
 30
0.0
 11
0.0
 21
-2.5
 31
0.0
  0
LINE
  5
8E
330
88
100
AcDbEntity
  8
FORMAT
 62
     0
100
AcDbLine
 10
0.0
 20
0.0
 30
0.0
 11
2.5
 21
0.0
 31
0.0
  0
LINE
  5
8F
330
88
100
AcDbEntity
  8
FORMAT
 62
     0
100
AcDbLine
 10
0.0
 20
5.0
 30
0.0
 11
0.0
 21
82.5
 31
0.0
  0
LINE
  5
90
330
88
100
AcDbEntity
  8
FORMAT
 62
     0
100
AcDbLine
 10
-5.0
 20
0.0
 30
0.0
 11
-82.5
 21
0.0
 31
0.0
  0
LINE
  5
91
330
88
100
AcDbEntity
  8
FORMAT
 62
     0
100
AcDbLine
 10
0.0
 20
-5.0
 30
0.0
 11
0.0
 21
-82.5
 31
0.0
  0
LINE
  5
92
330
88
100
AcDbEntity
  8
FORMAT
 62
     0
100
AcDbLine
 10
5.0
 20
0.0
 30
0.0
 11
82.5
 21
0.0
 31
0.0
  0
ENDBLK
  5
8A
330
88
100
AcDbEntity
  8
0
100
AcDbBlockEnd
  0
BLOCK
  5
B3
330
B2
100
AcDbEntity
  8
0
100
AcDbBlockBegin
  2
SW_CENTERMARKSYMBOL_1
 70
     0
 10
0.0
 20
0.0
 30
0.0
  3
SW_CENTERMARKSYMBOL_1
  1

  0
LINE
  5
B5
330
B2
100
AcDbEntity
  8
FORMAT
 62
     0
100
AcDbLine
 10
0.0
 20
0.0
 30
0.0
 11
0.0
 21
2.5
 31
0.0
  0
LINE
  5
B6
330
B2
100
AcDbEntity
  8
FORMAT
 62
     0
100
AcDbLine
 10
0.0
 20
0.0
 30
0.0
 11
-2.5
 21
0.0
 31
0.0
  0
LINE
  5
B7
330
B2
100
AcDbEntity
  8
FORMAT
 62
     0
100
AcDbLine
 10
0.0
 20
0.0
 30
0.0
 11
0.0
 21
-2.5
 31
0.0
  0
LINE
  5
B8
330
B2
100
AcDbEntity
  8
FORMAT
 62
     0
100
AcDbLine
 10
0.0
 20
0.0
 30
0.0
 11
2.5
 21
0.0
 31
0.0
  0
LINE
  5
B9
330
B2
100
AcDbEntity
  8
FORMAT
 62
     0
100
AcDbLine
 10
0.0
 20
5.0
 30
0.0
 11
0.0
 21
34.0
 31
0.0
  0
LINE
  5
BA
330
B2
100
AcDbEntity
  8
FORMAT
 62
     0
100
AcDbLine
 10
-5.0
 20
0.0
 30
0.0
 11
-34.0
 21
0.0
 31
0.0
  0
LINE
  5
BB
330
B2
100
AcDbEntity
  8
FORMAT
 62
     0
100
AcDbLine
 10
0.0
 20
-5.0
 30
0.0
 11
0.0
 21
-34.0
 31
0.0
  0
LINE
  5
BC
330
B2
100
AcDbEntity
  8
FORMAT
 62
     0
100
AcDbLine
 10
5.0
 20
0.0
 30
0.0
 11
34.0
 21
0.0
 31
0.0
  0
ENDBLK
  5
B4
330
B2
100
AcDbEntity
  8
0
100
AcDbBlockEnd
  0
ENDSEC
  0
SECTION
  2
ENTITIES
  0
LINE
  5
83
330
1F
100
AcDbEntity
  8
0
  6
Continuous
 62
     7
370
    25
100
AcDbLine
 10
164.850577116
 20
77.8862139987
 30
0.0
 11
266.2643721545
 21
77.8862139987
 31
0.0
  0
LINE
  5
84
330
1F
100
AcDbEntity
  8
0
  6
Continuous
 62
     7
370
    25
100
AcDbLine
 10
266.2643721545
 20
140.8862139987
 30
0.0
 11
164.8431749422
 21
140.8862139987
 31
0.0
  0
CIRCLE
  5
85
330
1F
100
AcDbEntity
  8
0
  6
Continuous
 62
     7
370
    25
100
AcDbCircle
 10
91.2643721545
 20
109.3862139987
 30
0.0
 40
65.40000000000002
  0
CIRCLE
  5
86
330
1F
100
AcDbEntity
  8
0
  6
Continuous
 62
     7
370
    25
100
AcDbCircle
 10
91.2643721545
 20
109.3862139987
 30
0.0
 40
80.00000000000001
  0
LINE
  5
87
330
1F
100
AcDbEntity
  8
0
  6
Continuous
 62
     7
370
    25
100
AcDbLine
 10
266.2643721545
 20
140.8862139987
 30
0.0
 11
266.2643721545
 21
77.8862139987
 31
0.0
  0
INSERT
  5
93
330
1F
100
AcDbEntity
  8
FORMAT
100
AcDbBlockReference
  2
SW_CENTERMARKSYMBOL_0
 10
91.2643721545
 20
109.3862139987
 30
0.0
  0
LINE
  5
94
330
1F
100
AcDbEntity
  8
0
  6
Continuous
 62
     7
370
    25
100
AcDbLine
 10
11.2643721545
 20
-50.5131256829
 30
0.0
 11
11.2643721545
 21
-467.5131256829
 31
0.0
  0
LINE
  5
95
330
1F
100
AcDbEntity
  8
0
  6
Continuous
 62
     7
370
    25
100
AcDbLine
 10
171.2643721545
 20
-227.5574584256
 30
0.0
 11
171.2643721545
 21
-50.5131256829
 31
0.0
  0
LINE
  5
96
330
1F
100
AcDbEntity
  8
0
  6
Continuous
 62
     7
370
    25
100
AcDbLine
 10
171.2643721545
 20
-467.5131256829
 30
0.0
 11
171.2643721545
 21
-290.5131256829
 31
0.0
  0
LINE
  5
97
330
1F
100
AcDbEntity
  8
0
  6
Continuous
 62
     7
370
    25
100
AcDbLine
 10
171.2643721545
 20
-290.5131256829
 30
0.0
 11
266.2643721545
 21
-290.5131256829
 31
0.0
  0
LINE
  5
98
330
1F
100
AcDbEntity
  8
0
  6
Continuous
 62
     7
370
    25
100
AcDbLine
 10
266.2643721545
 20
-227.5131256829
 30
0.0
 11
171.2470490082
 21
-227.5131256829
 31
0.0
  0
LWPOLYLINE
  5
99
330
1F
100
AcDbEntity
  8
0
  6
Continuous
 62
     7
370
    25
100
AcDbPolyline
 90
       22
 70
   128
 43
0.0
 10
171.2469878962
 20
-227.5574584256
 10
171.1293519339
 20
-227.8576286534
 10
170.7113669613
 20
-228.9452859895
 10
170.0289712134
 20
-230.7976677758
 10
169.1520736614
 20
-233.3471161369
 10
168.1391585334
 20
-236.6081534493
 10
167.0730191261
 20
-240.5957166454
 10
166.0792050878
 20
-245.2468906553
 10
165.3253160537
 20
-250.2225960492
 10
164.8779891833
 20
-255.6643031954
 10
164.820500143
 20
-260.6726330373
 10
165.1129557753
 20
-265.7853707171
 10
165.6758641862
 20
-270.3850272998
 10
166.4776480564
 20
-274.8019467881
 10
167.4511202444
 20
-278.9297163677
 10
168.5013889883
 20
-282.6310588988
 10
169.5292413885
 20
-285.8019247642
 10
170.4117280705
 20
-288.2800686132
 10
170.9623067969
 20
-289.7378842053
 10
171.2416299186
 20
-290.4553227987
 10
171.2643721545
 20
-290.5131256829
 10
171.2643721545
 20
-290.5131256829
  0
LINE
  5
9A
330
1F
100
AcDbEntity
  8
0
  6
Continuous
 62
     7
370
    25
100
AcDbLine
 10
171.2643721545
 20
-467.5131256829
 30
0.0
 11
11.2643721545
 21
-467.5131256829
 31
0.0
  0
LINE
  5
9B
330
1F
100
AcDbEntity
  8
0
  6
Continuous
 62
     7
370
    25
100
AcDbLine
 10
171.2643721545
 20
-50.5131256829
 30
0.0
 11
11.2643721545
 21
-50.5131256829
 31
0.0
  0
LINE
  5
9C
330
1F
100
AcDbEntity
  8
0
  6
Continuous
 62
     7
370
    25
100
AcDbLine
 10
266.2643721545
 20
-227.5131256829
 30
0.0
 11
266.2643721545
 21
-290.5131256829
 31
0.0
  0
LINE
  5
9D
330
1F
100
AcDbEntity
  8
0
  6
Continuous
 62
     7
370
    25
100
AcDbLine
 10
171.2643721545
 20
502.258549734
 30
0.0
 11
171.2643721545
 21
679.258549734
 31
0.0
  0
LINE
  5
9E
330
1F
100
AcDbEntity
  8
0
  6
Continuous
 62
     7
370
    25
100
AcDbLine
 10
171.2643721545
 20
262.258549734
 30
0.0
 11
171.2643721545
 21
439.3028824766
 31
0.0
  0
LINE
  5
9F
330
1F
100
AcDbEntity
  8
0
  6
Continuous
 62
     7
370
    25
100
AcDbLine
 10
11.2643721545
 20
679.258549734
 30
0.0
 11
11.2643721545
 21
262.258549734
 31
0.0
  0
LINE
  5
A0
330
1F
100
AcDbEntity
  8
0
  6
Continuous
 62
     7
370
    25
100
AcDbLine
 10
171.2470490082
 20
439.258549734
 30
0.0
 11
266.2643721545
 21
439.258549734
 31
0.0
  0
LINE
  5
A1
330
1F
100
AcDbEntity
  8
0
  6
Continuous
 62
     7
370
    25
100
AcDbLine
 10
266.2643721545
 20
502.258549734
 30
0.0
 11
171.2643721545
 21
502.258549734
 31
0.0
  0
SPLINE
  5
A2
330
1F
100
AcDbEntity
  8
0
  6
Continuous
 62
     7
370
    25
100
AcDbSpline
210
0.0
220
0.0
230
1.0
 70
     8
 71
     3
 72
    27
 73
    23
 74
     0
 42
0.000000001
 43
0.00000001
 40
0.0
 40
0.0
 40
0.0
 40
0.0
 40
0.0502158374093263
 40
0.1019530413943613
 40
0.1521522465650168
 40
0.2037000922351616
 40
0.256008428238258
 40
0.3097098253890226
 40
0.3641267500350076
 40
0.4202597164791645
 40
0.4721973909040154
 40
0.5258654341752877
 40
0.5744388653687303
 40
0.6243740907521365
 40
0.6740047060232144
 40
0.7248853076129469
 40
0.7781681791949832
 40
0.8329344695111385
 40
0.8870758860427518
 40
0.9429772561166676
 40
0.9939963044720663
 40
1.0
 40
1.0
 40
1.0
 40
1.0
 10
171.2643721545176
 20
502.2585497339876
 30
0.0
 10
171.2337219629848
 20
502.1811172004332
 30
0.0
 10
171.1714929848914
 20
502.0239061947818
 30
0.0
 10
170.6832902025349
 20
500.7645610938361
 30
0.0
 10
169.9530051083833
 20
498.7886217511191
 30
0.0
 10
169.0237876563984
 20
496.0873502493469
 30
0.0
 10
167.9697826292823
 20
492.6730976674667
 30
0.0
 10
166.8941928137469
 20
488.5962029252224
 30
0.0
 10
165.9115986642255
 20
483.891321286429
 30
0.0
 10
165.1803301620484
 20
478.8115667292004
 30
0.0
 10
164.7893076024787
 20
473.492175527323
 30
0.0
 10
164.7825482417844
 20
468.3288608322468
 30
0.0
 10
165.1262875132536
 20
463.3159437190317
 30
0.0
 10
165.7478496002193
 20
458.6427365551524
 30
0.0
 10
166.5995319418861
 20
454.2267614323442
 30
0.0
 10
167.6049317289219
 20
450.147598347267
 30
0.0
 10
168.6826599830717
 20
446.4826941078809
 30
0.0
 10
169.7046354010422
 20
443.4222745585084
 30
0.0
 10
170.5634690354105
 20
441.0672326978448
 30
0.0
 10
171.0851314913186
 20
439.7126485692111
 30
0.0
 10
171.3064028209443
 20
439.1513413033792
 30
0.0
 10
171.2526475705123
 20
439.2884471527717
 30
0.0
 10
171.2469878962377
 20
439.3028824766231
 30
0.0
  0
LINE
  5
A3
330
1F
100
AcDbEntity
  8
0
  6
Continuous
 62
     7
370
    25
100
AcDbLine
 10
11.2643721545
 20
679.258549734
 30
0.0
 11
171.2643721545
 21
679.258549734
 31
0.0
  0
LINE
  5
A4
330
1F
100
AcDbEntity
  8
0
  6
Continuous
 62
     7
370
    25
100
AcDbLine
 10
11.2643721545
 20
262.258549734
 30
0.0
 11
171.2643721545
 21
262.258549734
 31
0.0
  0
LINE
  5
A5
330
1F
100
AcDbEntity
  8
0
  6
Continuous
 62
     7
370
    25
100
AcDbLine
 10
266.2643721545
 20
502.258549734
 30
0.0
 11
266.2643721545
 21
439.258549734
 31
0.0
  0
LINE
  5
A6
330
1F
100
AcDbEntity
  8
0
  6
Continuous
 62
     7
370
    25
100
AcDbLine
 10
322.8824526328
 20
29.3862139987
 30
0.0
 11
739.8824526328
 21
29.3862139987
 31
0.0
  0
LINE
  5
A7
330
1F
100
AcDbEntity
  8
0
  6
Continuous
 62
     7
370
    25
100
AcDbLine
 10
739.8824526328
 20
189.3862139987
 30
0.0
 11
322.8824526328
 21
189.3862139987
 31
0.0
  0
LINE
  5
A8
330
1F
100
AcDbEntity
  8
0
  6
Continuous
 62
     7
370
    25
100
AcDbLine
 10
739.8824526328
 20
189.3862139987
 30
0.0
 11
739.8824526328
 21
29.3862139987
 31
0.0
  0
LINE
  5
A9
330
1F
100
AcDbEntity
  8
0
  6
Continuous
 62
     7
370
    25
100
AcDbLine
 10
322.8824526328
 20
189.3862139987
 30
0.0
 11
322.8824526328
 21
29.3862139987
 31
0.0
  0
LINE
  5
AA
330
1F
100
AcDbEntity
  8
0
  6
Continuous
 62
     7
370
    25
100
AcDbLine
 10
-61.594423058
 20
189.3862139987
 30
0.0
 11
-478.594423058
 21
189.3862139987
 31
0.0
  0
LINE
  5
AB
330
1F
100
AcDbEntity
  8
0
  6
Continuous
 62
     7
370
    25
100
AcDbLine
 10
-478.594423058
 20
29.3862139987
 30
0.0
 11
-61.594423058
 21
29.3862139987
 31
0.0
  0
CIRCLE
  5
AC
330
1F
100
AcDbEntity
  8
0
  6
Continuous
 62
     7
370
    25
100
AcDbCircle
 10
-270.094423058
 20
109.3862139987
 30
0.0
 40
25.69999999999999
  0
CIRCLE
  5
AD
330
1F
100
AcDbEntity
  8
0
  6
Continuous
 62
     7
370
    25
100
AcDbCircle
 10
-270.094423058
 20
109.3862139987
 30
0.0
 40
31.49999999999997
  0
LINE
  5
AE
330
1F
100
AcDbEntity
  8
0
  6
Continuous
 62
     7
370
    25
100
AcDbLine
 10
-478.594423058
 20
109.3862139987
 30
0.0
 11
-478.594423058
 21
189.3862139987
 31
0.0
  0
LINE
  5
AF
330
1F
100
AcDbEntity
  8
0
  6
Continuous
 62
     7
370
    25
100
AcDbLine
 10
-478.594423058
 20
29.3862139987
 30
0.0
 11
-478.594423058
 21
109.3862139987
 31
0.0
  0
LINE
  5
B0
330
1F
100
AcDbEntity
  8
0
  6
Continuous
 62
     7
370
    25
100
AcDbLine
 10
-61.594423058
 20
109.3862139987
 30
0.0
 11
-61.594423058
 21
189.3862139987
 31
0.0
  0
LINE
  5
B1
330
1F
100
AcDbEntity
  8
0
  6
Continuous
 62
     7
370
    25
100
AcDbLine
 10
-61.594423058
 20
29.3862139987
 30
0.0
 11
-61.594423058
 21
109.3862139987
 31
0.0
  0
INSERT
  5
BD
330
1F
100
AcDbEntity
  8
FORMAT
100
AcDbBlockReference
  2
SW_CENTERMARKSYMBOL_1
 10
-270.094423058
 20
109.3862139987
 30
0.0
  0
LINE
  5
BE
330
1F
100
AcDbEntity
  8
0
  6
Continuous
 62
     7
370
    25
100
AcDbLine
 10
723.0117142822
 20
-255.8376245023
 30
0.0
 11
647.0922631469
 21
-212.0102582536
 31
0.0
  0
LINE
  5
BF
330
1F
100
AcDbEntity
  8
0
  6
Continuous
 62
     7
370
    25
100
AcDbLine
 10
584.0871428869
 20
-175.6381765291
 30
0.0
 11
428.1481865274
 21
-85.6165331873
 31
0.0
  0
LINE
  5
C0
330
1F
100
AcDbEntity
  8
0
  6
Continuous
 62
     7
370
    25
100
AcDbLine
 10
348.1546879165
 20
-224.1843511682
 30
0.0
 11
643.0182156713
 21
-394.4054424832
 31
0.0
  0
LINE
  5
C1
330
1F
100
AcDbEntity
  8
0
  6
Continuous
 62
     7
370
    25
100
AcDbLine
 10
605.6617782258
 20
-235.9275681044
 30
0.0
 11
675.075607846
 21
-195.8558172158
 31
0.0
  0
LINE
  5
C2
330
1F
100
AcDbEntity
  8
0
  6
Continuous
 62
     7
370
    25
100
AcDbLine
 10
643.578167768
 20
-141.2947388858
 30
0.0
 11
574.1654774648
 21
-181.3658320606
 31
0.0
  0
SPLINE
  5
C3
330
1F
100
AcDbEntity
  8
0
  6
Continuous
 62
     7
370
    25
100
AcDbSpline
210
0.0
220
0.0
230
1.0
 70
     8
 71
     3
 72
    22
 73
    18
 74
     0
 42
0.000000001
 43
0.00000001
 40
0.0
 40
0.0
 40
0.0
 40
0.0
 40
0.0669488066120959
 40
0.1359259310202884
 40
0.2028525631832912
 40
0.2715772311184262
 40
0.3413158007000903
 40
0.4129116285927896
 40
0.4854614127346433
 40
0.5602990597582329
 40
0.6295434555572671
 40
0.7010948153589597
 40
0.7658539315905208
 40
0.8324286203699651
 40
0.8985971965651243
 40
0.9664322807114148
 40
1.0
 40
1.0
 40
1.0
 40
1.0
 10
569.8778799869252
 20
-194.4962356011594
 30
0.0
 10
569.9109600976146
 20
-195.9070413421159
 30
0.0
 10
569.9781225321861
 20
-198.7713953692066
 30
0.0
 10
570.5234025040805
 20
-203.5038856819686
 30
0.0
 10
571.4042130359313
 20
-208.4248144588634
 30
0.0
 10
572.6572446025535
 20
-213.4087835646458
 30
0.0
 10
574.3261911491079
 20
-218.3922269049715
 30
0.0
 10
576.4484361614891
 20
-223.2044288235442
 30
0.0
 10
579.080483412478
 20
-227.6997599143358
 30
0.0
 10
582.1553554832572
 20
-231.5468506810842
 30
0.0
 10
585.6401393525138
 20
-234.6270744525773
 30
0.0
 10
589.286737694748
 20
-236.7508969143977
 30
0.0
 10
593.0732130622082
 20
-237.9966254427943
 30
0.0
 10
596.8218690603031
 20
-238.4144277757863
 30
0.0
 10
600.5290082327263
 20
-238.0019261620532
 30
0.0
 10
603.5232765923708
 20
-237.1441731793294
 30
0.0
 10
605.0892708636649
 20
-236.1601465683163
 30
0.0
 10
605.6076673411359
 20
-235.8344008499329
 30
0.0
  0
SPLINE
  5
C4
330
1F
100
AcDbEntity
  8
0
  6
Continuous
 62
     7
370
    25
100
AcDbSpline
210
0.0
220
0.0
230
1.0
 70
     8
 71
     3
 72
    13
 73
     9
 74
     0
 42
0.000000001
 43
0.00000001
 40
0.0
 40
0.0
 40
0.0
 40
0.0
 40
0.0802617949273059
 40
0.2973217882060568
 40
0.5209032345417647
 40
0.719389264208889
 40
0.9235503503204958
 40
1.0
 40
1.0
 40
1.0
 40
1.0
 10
574.2140381722538
 20
-181.4521485128901
 30
0.0
 10
573.9690678852072
 20
-181.5643075297614
 30
0.0
 10
573.0615999688964
 20
-181.9797893849801
 30
0.0
 10
571.9162959988372
 20
-183.5144525396802
 30
0.0
 10
570.8197556323294
 20
-186.0024363110128
 30
0.0
 10
570.1539544810995
 20
-189.2012274553193
 30
0.0
 10
569.9015418739308
 20
-192.1014811736166
 30
0.0
 10
569.8829461971404
 20
-193.9834984157873
 30
0.0
 10
569.8778799869252
 20
-194.4962356011594
 30
0.0
  0
LWPOLYLINE
  5
C5
330
1F
100
AcDbEntity
  8
0
  6
Continuous
 62
     7
370
    25
100
AcDbPolyline
 90
       95
 70
   128
 43
0.0
 10
444.7199797169
 20
-122.2441177048
 10
444.5936552954
 20
-117.9539303302
 10
444.2152462264
 20
-113.8287550464
 10
443.5864425767
 20
-109.8870158876
 10
442.7100527361
 20
-106.1463176178
 10
441.5899908742
 20
-102.6233671036
 10
440.2312594594
 20
-99.333898697
 10
438.6399269158
 20
-96.2926039627
 10
436.8231005211
 20
-93.513066061
 10
434.7888946628
 20
-91.0076990832
 10
432.5463945981
 20
-88.7876926061
 10
430.1056158768
 20
-86.8629617178
 10
427.477459609
 20
-85.2421027336
 10
424.6736637788
 20
-83.9323548031
 10
421.7067508188
 20
-82.9395675787
 10
418.5899716827
 20
-82.2681750889
 10
415.3372466625
 20
-81.9211759357
 10
411.963103218
 20
-81.9001199016
 10
408.4826110927
 20
-82.2051010278
 10
404.9113150095
 20
-82.8347571947
 10
401.2651652436
 20
-83.7862762049
 10
397.5604463849
 20
-85.0554083436
 10
393.8137046072
 20
-86.6364853585
 10
390.0416737688
 20
-88.5224457759
 10
386.2612006752
 20
-90.7048664387
 10
382.4891698368
 20
-93.1740001265
 10
378.7424280591
 20
-95.9188190888
 10
375.0377092004
 20
-98.9270642979
 10
371.3915594344
 20
-102.1853002003
 10
367.8202633512
 20
-105.6789747235
 10
364.339771226
 20
-109.3924842692
 10
360.9656277814
 20
-113.309243402
 10
357.7129027613
 20
-117.411758925
 10
354.5961236251
 20
-121.6817080079
 10
351.6292106652
 20
-126.1000200216
 10
348.8254148349
 20
-130.6469617121
 10
346.1972585672
 20
-135.3022253339
 10
343.7564798459
 20
-140.0450193497
 10
341.5139797812
 20
-144.8541612901
 10
339.4797739229
 20
-149.7081723597
 10
337.6629475281
 20
-154.5853733667
 10
336.0716149846
 20
-159.4639815475
 10
334.7128835697
 20
-164.3222078537
 10
333.5928217079
 20
-169.1383542672
 10
332.7164318672
 20
-173.890910709
 10
332.0876282175
 20
-178.5586511084
 10
331.7092191486
 20
-183.1207282035
 10
331.5828947271
 20
-187.5567666507
 10
331.7092191486
 20
-191.8469540253
 10
332.0876282175
 20
-195.9721293091
 10
332.7164318672
 20
-199.9138684679
 10
333.5928217079
 20
-203.6545667377
 10
334.7128835697
 20
-207.177517252
 10
336.0716149846
 20
-210.4669856585
 10
337.6629475281
 20
-213.5082803929
 10
339.4797739229
 20
-216.2878182945
 10
341.5139797812
 20
-218.7931852724
 10
343.7564798459
 20
-221.0131917494
 10
346.1972585672
 20
-222.9379226377
 10
348.8254148349
 20
-224.5587816219
 10
351.6292106652
 20
-225.8685295524
 10
354.5961236251
 20
-226.8613167769
 10
357.7129027613
 20
-227.5327092666
 10
360.9656277814
 20
-227.8797084198
 10
364.339771226
 20
-227.9007644539
 10
367.8202633512
 20
-227.5957833277
 10
371.3915594344
 20
-226.9661271608
 10
375.0377092004
 20
-226.0146081506
 10
378.7424280591
 20
-224.7454760119
 10
382.4891698368
 20
-223.164398997
 10
386.2612006752
 20
-221.2784385796
 10
390.0416737688
 20
-219.0960179168
 10
393.8137046072
 20
-216.626884229
 10
397.5604463849
 20
-213.8820652667
 10
401.2651652436
 20
-210.8738200576
 10
404.9113150095
 20
-207.6155841552
 10
408.4826110927
 20
-204.121909632
 10
411.963103218
 20
-200.4084000864
 10
415.3372466625
 20
-196.4916409535
 10
418.5899716827
 20
-192.3891254305
 10
421.7067508188
 20
-188.1191763476
 10
424.6736637788
 20
-183.7008643339
 10
427.477459609
 20
-179.1539226434
 10
430.1056158768
 20
-174.4986590216
 10
432.5463945981
 20
-169.7558650058
 10
434.7888946628
 20
-164.9467230654
 10
436.8231005211
 20
-160.0927119958
 10
438.6399269158
 20
-155.2155109888
 10
440.2312594594
 20
-150.336902808
 10
441.5899908742
 20
-145.4786765018
 10
442.7100527361
 20
-140.6625300883
 10
443.5864425767
 20
-135.9099736465
 10
444.2152462264
 20
-131.2422332472
 10
444.5936552954
 20
-126.680156152
 10
444.7199797169
 20
-122.2441177048
  0
LWPOLYLINE
  5
C6
330
1F
100
AcDbEntity
  8
0
  6
Continuous
 62
     7
370
    25
100
AcDbPolyline
 90
       13
 70
   128
 43
0.0
 10
739.5835074717
 20
-292.4652090199
 10
739.4571830502
 20
-288.1750216453
 10
739.0787739812
 20
-284.0498463614
 10
738.4499703315
 20
-280.1081072027
 10
737.5735804909
 20
-276.3674089329
 10
736.453518629
 20
-272.8444584186
 10
735.0947872142
 20
-269.5549900121
 10
733.5034546706
 20
-266.5136952777
 10
731.6866282758
 20
-263.7341573761
 10
729.6524224175
 20
-261.2287903982
 10
727.4099223529
 20
-259.0087839212
 10
724.9691436316
 20
-257.0840530329
 10
723.0117142822
 20
-255.8376245023
  0
LWPOLYLINE
  5
C7
330
1F
100
AcDbEntity
  8
0
  6
Continuous
 62
     7
370
    25
100
AcDbPolyline
 90
       37
 70
   128
 43
0.0
 10
643.0182156713
 20
-394.4054424832
 10
643.6889425897
 20
-394.779872937
 10
646.49273842
 20
-396.0896208674
 10
649.4596513799
 20
-397.0824080919
 10
652.5764305161
 20
-397.7538005816
 10
655.8291555362
 20
-398.1007997348
 10
659.2032989808
 20
-398.121855769
 10
662.683791106
 20
-397.8168746427
 10
666.2550871892
 20
-397.1872184759
 10
669.9012369552
 20
-396.2356994657
 10
673.6059558139
 20
-394.966567327
 10
677.3526975916
 20
-393.3854903121
 10
681.1247284299
 20
-391.4995298947
 10
684.9052015236
 20
-389.3171092318
 10
688.677232362
 20
-386.847975544
 10
692.4239741397
 20
-384.1031565817
 10
696.1286929984
 20
-381.0949113727
 10
699.7748427643
 20
-377.8366754703
 10
703.3461388475
 20
-374.343000947
 10
706.8266309728
 20
-370.6294914014
 10
710.2007744173
 20
-366.7127322685
 10
713.4534994375
 20
-362.6102167455
 10
716.5702785736
 20
-358.3402676626
 10
719.5371915336
 20
-353.9219556489
 10
722.3409873638
 20
-349.3750139585
 10
724.9691436316
 20
-344.7197503366
 10
727.4099223529
 20
-339.9769563208
 10
729.6524224175
 20
-335.1678143804
 10
731.6866282759
 20
-330.3138033109
 10
733.5034546706
 20
-325.4366023038
 10
735.0947872142
 20
-320.557994123
 10
736.453518629
 20
-315.6997678168
 10
737.5735804909
 20
-310.8836214033
 10
738.4499703315
 20
-306.1310649615
 10
739.0787739812
 20
-301.4633245622
 10
739.4571830502
 20
-296.9012474671
 10
739.5835074717
 20
-292.4652090199
  0
LWPOLYLINE
  5
C8
330
1F
100
AcDbEntity
  8
0
  6
Continuous
 62
     7
370
    25
100
AcDbPolyline
 90
       86
 70
   128
 43
0.0
 10
434.3962207116
 20
-128.2038969212
 10
434.2699342261
 20
-124.332944938
 10
433.8917645025
 20
-120.6289420248
 10
433.2637769728
 20
-117.1121181611
 10
432.389401487
 20
-113.8016810192
 10
431.2734135809
 20
-110.7157110589
 10
429.9219083933
 20
-107.8710627779
 10
428.3422673771
 20
-105.2832726588
 10
426.5431179836
 20
-102.9664743138
 10
424.5342865429
 20
-100.933321292
 10
422.3267445957
 20
-99.1949179703
 10
419.9325489707
 20
-97.7607589046
 10
417.3647759342
 20
-96.6386769746
 10
414.6374497719
 20
-95.8348006026
 10
411.7654661937
 20
-95.3535202826
 10
408.7645109779
 20
-95.1974646008
 10
405.6509743013
 20
-95.3674858793
 10
402.4418612215
 20
-95.8626555207
 10
399.1546988013
 20
-96.6802690802
 10
395.807440382
 20
-97.815861036
 10
392.4183675283
 20
-99.2632291788
 10
389.0059901809
 20
-101.0144684855
 10
385.5889455617
 20
-103.0600142944
 10
382.1858963832
 20
-105.3886945437
 10
378.8154289202
 20
-107.9877907892
 10
375.495951497
 20
-110.8431076687
 10
372.2455939483
 20
-113.9390504314
 10
369.0821085998
 20
-117.2587101116
 10
366.0227733116
 20
-120.7839558792
 10
363.0842971121
 20
-124.4955340644
 10
360.2827289393
 20
-128.3731733141
 10
357.633369987
 20
-132.3956953075
 10
355.1506901352
 20
-136.5411304243
 10
352.8482489203
 20
-140.7868377354
 10
350.7386214777
 20
-145.1096286597
 10
348.833329861
 20
-149.4858936123
 10
347.1427801123
 20
-153.8917309516
 10
345.6762054281
 20
-158.3030775218
 10
344.4416157308
 20
-162.6958400776
 10
343.4457539211
 20
-167.0460268734
 10
342.694059051
 20
-171.3298786973
 10
342.1906366171
 20
-175.5239986362
 10
341.9382361382
 20
-179.6054798614
 10
341.9382361382
 20
-183.5520307377
 10
342.1906366171
 20
-187.3420965729
 10
342.694059051
 20
-190.9549773417
 10
343.4457539211
 20
-194.370940742
 10
344.4416157308
 20
-197.5713299665
 10
345.6762054281
 20
-200.5386655989
 10
347.1427801123
 20
-203.256741081
 10
348.833329861
 20
-205.7107112271
 10
350.7386214777
 20
-207.8871733032
 10
352.8482489203
 20
-209.7742402282
 10
355.1506901352
 20
-211.3616054969
 10
357.633369987
 20
-212.6405994707
 10
360.2827289393
 20
-213.604236728
 10
363.0842971121
 20
-214.2472542162
 10
366.0227733116
 20
-214.5661399969
 10
369.0821085998
 20
-214.5591524265
 10
372.2455939483
 20
-214.2263296687
 10
375.495951497
 20
-213.5694894859
 10
378.8154289202
 20
-212.5922193114
 10
382.1858963832
 20
-211.2998566562
 10
385.5889455617
 20
-209.6994599567
 10
389.0059901809
 20
-207.7997700249
 10
392.4183675283
 20
-205.6111623084
 10
395.807440382
 20
-203.1455902236
 10
399.1546988013
 20
-200.4165198702
 10
402.4418612215
 20
-197.4388564841
 10
405.6509743013
 20
-194.2288630302
 10
408.7645109779
 20
-190.8040713795
 10
411.7654661937
 20
-187.1831865565
 10
414.6374497719
 20
-183.3859845785
 10
417.3647759342
 20
-179.4332044458
 10
419.9325489707
 20
-175.3464348729
 10
422.3267445957
 20
-171.147996378
 10
424.5342865429
 20
-166.8608193763
 10
426.5431179836
 20
-162.5083189418
 10
428.3422673771
 20
-158.1142669226
 10
429.9219083933
 20
-153.7026621071
 10
431.2734135809
 20
-149.297599151
 10
432.389401487
 20
-144.9231369806
 10
433.2637769728
 20
-140.6031673914
 10
433.8917645025
 20
-136.3612845591
 10
434.2699342261
 20
-132.2206561769
 10
434.3962207116
 20
-128.2038969212
  0
LWPOLYLINE
  5
C9
330
1F
100
AcDbEntity
  8
0
  6
Continuous
 62
     7
370
    25
100
AcDbPolyline
 90
       54
 70
   128
 43
0.0
 10
677.4995320835
 20
-179.0661222877
 10
677.3719800382
 20
-176.5105138744
 10
676.9911144532
 20
-173.8435121443
 10
676.3622818466
 20
-171.1025559557
 10
675.4943096497
 20
-168.3261223251
 10
674.3993822896
 20
-165.5531862948
 10
673.0928701463
 20
-162.8226738082
 10
671.5931137863
 20
-160.1729152754
 10
669.9211665015
 20
-157.6411074977
 10
668.1004987667
 20
-155.2627915065
 10
666.1566687661
 20
-153.0713536451
 10
664.1169636118
 20
-151.0975568974
 10
662.0100162933
 20
-149.369109043
 10
659.8654037323
 20
-147.910273701
 10
657.7132315881
 20
-146.7415297219
 10
655.5837116401
 20
-145.8792837091
 10
653.5067376803
 20
-145.3356397066
 10
651.5114658704
 20
-145.1182292846
 10
649.6259054528
 20
-145.2301044088
 10
647.8765255627
 20
-145.6696945977
 10
646.287883659
 20
-146.4308289685
 10
644.8822807916
 20
-147.5028228633
 10
643.6794485438
 20
-148.8706278375
 10
642.6962720437
 20
-150.5150429076
 10
641.9465529341
 20
-152.4129840906
 10
641.4408156279
 20
-154.5378084525
 10
641.1861595684
 20
-156.8596881172
 10
641.1861595684
 20
-159.3460289836
 10
641.4408156279
 20
-161.9619282761
 10
641.9465529341
 20
-164.6706645028
 10
642.6962720437
 20
-167.4342129448
 10
643.6794485438
 20
-170.2137794396
 10
644.8822807916
 20
-172.9703449665
 10
646.287883659
 20
-175.665213388
 10
647.8765255627
 20
-178.2605546587
 10
649.6259054528
 20
-180.7199358763
 10
651.5114658704
 20
-183.0088327193
 10
653.5067376803
 20
-185.0951140936
 10
655.5837116401
 20
-186.9494931818
 10
657.7132315881
 20
-188.5459385663
 10
659.8654037323
 20
-189.8620396534
 10
662.0100162933
 20
-190.8793212687
 10
664.1169636118
 20
-191.5835030084
 10
666.1566687661
 20
-191.9646997042
 10
668.1004987667
 20
-192.0175601904
 10
669.9211665015
 20
-191.7413424213
 10
671.5931137863
 20
-191.1399238892
 10
673.0928701463
 20
-190.2217471918
 10
674.3993822896
 20
-188.9997015173
 10
675.4943096497
 20
-187.4909417083
 10
676.3622818466
 20
-185.7166474451
 10
676.9911144532
 20
-183.70172593
 10
677.3719800382
 20
-181.4744622442
 10
677.4995320835
 20
-179.0661222877
  0
LWPOLYLINE
  5
CA
330
1F
100
AcDbEntity
  8
0
  6
Continuous
 62
     7
370
    25
100
AcDbPolyline
 90
       60
 70
   128
 43
0.0
 10
681.6007514144
 20
-181.433705812
 10
681.474565527
 20
-178.6268817241
 10
681.0974376012
 20
-175.7061689501
 10
680.4736406472
 20
-172.7046603329
 10
679.6102425337
 20
-169.6563641645
 10
678.5170259064
 20
-166.5958188583
 10
677.2063773464
 20
-163.5577016158
 10
675.6931470256
 20
-160.5764355192
 10
673.9944804482
 20
-157.6857995047
 10
672.1296241854
 20
-154.9185456333
 10
670.1197078036
 20
-152.3060279972
 10
667.9875044588
 20
-149.877847465
 10
665.7571728666
 20
-147.6615162925
 10
663.4539835753
 20
-145.6821463974
 10
661.1040326399
 20
-143.9621648316
 10
658.7339459434
 20
-142.5210596734
 10
656.3705775151
 20
-141.3751592202
 10
654.0407052637
 20
-140.537446982
 10
651.7707275728
 20
-140.0174145731
 10
649.5863641966
 20
-139.8209541686
 10
647.5123648451
 20
-139.9502917433
 10
645.5722287595
 20
-140.4039618508
 10
643.7879384571
 20
-141.1768242276
 10
642.1797106598
 20
-142.260122034
 10
640.7657672313
 20
-143.6415810732
 10
639.5621287155
 20
-145.305548862
 10
638.5824328178
 20
-147.2331719807
 10
637.8377798843
 20
-149.4026096891
 10
637.3366071301
 20
-151.789281391
 10
637.0845930428
 20
-154.3661451424
 10
637.0845930428
 20
-157.1040040473
 10
637.3366071301
 20
-159.9718370704
 10
637.8377798843
 20
-162.9371505175
 10
638.5824328178
 20
-165.9663462025
 10
639.5621287155
 20
-169.0251021278
 10
640.7657672313
 20
-172.0787613665
 10
642.1797106598
 20
-175.0927247394
 10
643.7879384571
 20
-178.0328428371
 10
645.5722287595
 20
-180.8658029466
 10
647.5123648451
 20
-183.5595064981
 10
649.5863641966
 20
-186.0834327538
 10
651.7707275728
 20
-188.4089846209
 10
654.0407052637
 20
-190.5098126674
 10
656.3705775151
 20
-192.3621136721
 10
658.7339459434
 20
-193.9449003244
 10
661.1040326399
 20
-195.2402390192
 10
663.4539835753
 20
-196.2334530515
 10
665.7571728666
 20
-196.9132889093
 10
667.9875044588
 20
-197.2720437808
 10
670.1197078036
 20
-197.30565283
 10
672.1296241854
 20
-197.0137352528
 10
673.9944804482
 20
-196.3995985922
 10
675.6931470256
 20
-195.4702012617
 10
677.2063773464
 20
-194.2360737046
 10
678.5170259064
 20
-192.7111990792
 10
679.6102425337
 20
-190.9128548243
 10
680.4736406472
 20
-188.8614168989
 10
681.0974376012
 20
-186.5801289145
 10
681.474565527
 20
-184.0948387754
 10
681.6007514144
 20
-181.433705812
  0
ENDSEC
  0
SECTION
  2
OBJECTS
  0
DICTIONARY
  5
C
330
0
100
AcDbDictionary
281
     1
  3
ACAD_GROUP
350
D
  3
ACAD_LAYOUT
350
1A
  3
ACAD_MLINESTYLE
350
17
  3
ACAD_PLOTSETTINGS
350
19
  3
ACAD_PLOTSTYLENAME
350
E
  3
ACAD_SCALELIST
350
47
  0
DICTIONARY
  5
D
102
{ACAD_REACTORS
330
C
102
}
330
C
100
AcDbDictionary
281
     1
  0
DICTIONARY
  5
1A
102
{ACAD_REACTORS
330
C
102
}
330
C
100
AcDbDictionary
281
     1
  3
Layout1
350
1E
  3
Layout2
350
26
  3
Model
350
22
  0
DICTIONARY
  5
17
102
{ACAD_REACTORS
330
C
102
}
330
C
100
AcDbDictionary
281
     1
  3
Standard
350
18
  0
DICTIONARY
  5
19
102
{ACAD_REACTORS
330
C
102
}
330
C
100
AcDbDictionary
281
     1
  0
ACDBDICTIONARYWDFLT
  5
E
102
{ACAD_REACTORS
330
C
102
}
330
C
100
AcDbDictionary
281
     1
  3
Normal
350
F
100
AcDbDictionaryWithDefault
340
F
  0
DICTIONARY
  5
47
102
{ACAD_REACTORS
330
C
102
}
330
C
100
AcDbDictionary
281
     1
  3
A0
350
48
  3
A1
350
49
  3
A2
350
4A
  3
A3
350
4B
  3
A4
350
4C
  3
A5
350
4D
  3
A6
350
4E
  3
A7
350
4F
  3
A8
350
50
  3
A9
350
51
  3
B0
350
52
  3
B1
350
53
  3
B2
350
54
  3
B3
350
55
  3
B4
350
56
  3
B5
350
57
  3
B6
350
58
  3
B7
350
59
  3
B8
350
5A
  3
B9
350
5B
  3
C0
350
5C
  3
C1
350
5D
  3
C2
350
5E
  3
C3
350
5F
  3
C4
350
60
  3
C5
350
61
  3
C6
350
62
  3
C7
350
63
  3
C8
350
64
  3
C9
350
65
  3
D0
350
66
  3
D1
350
67
  3
D2
350
68
  0
LAYOUT
  5
1E
102
{ACAD_REACTORS
330
1A
102
}
330
1A
100
AcDbPlotSettings
  1

  2
none_device
  4

  6

 40
0.0
 41
0.0
 42
0.0
 43
0.0
 44
0.0
 45
0.0
 46
0.0
 47
0.0
 48
0.0
 49
0.0
140
0.0
141
0.0
142
1.0
143
1.0
 70
   688
 72
     1
 73
     0
 74
     5
  7

 75
    16
147
1.0
148
0.0
149
0.0
100
AcDbLayout
  1
Layout1
 70
     1
 71
     1
 10
0.0
 20
0.0
 11
420.0
 21
297.0
 12
0.0
 22
0.0
 32
0.0
 14
1.0000000000E+20
 24
1.0000000000E+20
 34
1.0000000000E+20
 15
-1.0000000000E+20
 25
-1.0000000000E+20
 35
-1.0000000000E+20
146
0.0
 13
0.0
 23
0.0
 33
0.0
 16
1.0
 26
0.0
 36
0.0
 17
0.0
 27
1.0
 37
0.0
 76
     0
330
1B
  0
LAYOUT
  5
26
102
{ACAD_REACTORS
330
1A
102
}
330
1A
100
AcDbPlotSettings
  1

  2
none_device
  4

  6

 40
0.0
 41
0.0
 42
0.0
 43
0.0
 44
0.0
 45
0.0
 46
0.0
 47
0.0
 48
0.0
 49
0.0
140
0.0
141
0.0
142
1.0
143
1.0
 70
   688
 72
     1
 73
     0
 74
     5
  7

 75
    16
147
1.0
148
0.0
149
0.0
100
AcDbLayout
  1
Layout2
 70
     1
 71
     2
 10
0.0
 20
0.0
 11
0.0
 21
0.0
 12
0.0
 22
0.0
 32
0.0
 14
0.0
 24
0.0
 34
0.0
 15
0.0
 25
0.0
 35
0.0
146
0.0
 13
0.0
 23
0.0
 33
0.0
 16
1.0
 26
0.0
 36
0.0
 17
0.0
 27
1.0
 37
0.0
 76
     0
330
23
  0
LAYOUT
  5
22
102
{ACAD_REACTORS
330
1A
102
}
330
1A
100
AcDbPlotSettings
  1

  2
none_device
  4
Letter_(8.50_x_11.00_Inches)
  6

 40
6.35
 41
6.35
 42
6.35000508
 43
6.35000508
 44
215.9
 45
279.4
 46
0.0
 47
0.0
 48
0.0
 49
0.0
140
0.0
141
0.0
142
1.0
143
1.0
 70
  1712
 72
     1
 73
     0
 74
     0
  7

 75
     0
147
1.0
148
0.0
149
0.0
100
AcDbLayout
  1
Model
 70
     1
 71
     0
 10
0.0
 20
0.0
 11
279.4
 21
215.9
 12
0.0
 22
0.0
 32
0.0
 14
0.0
 24
0.0
 34
0.0
 15
279.4
 25
215.9
 35
0.0
146
0.0
 13
0.0
 23
0.0
 33
0.0
 16
1.0
 26
0.0
 36
0.0
 17
0.0
 27
1.0
 37
0.0
 76
     0
330
1F
331
29
  0
MLINESTYLE
  5
18
102
{ACAD_REACTORS
330
17
102
}
330
17
100
AcDbMlineStyle
  2
Standard
 70
     0
  3

 62
   256
 51
90.0
 52
90.0
 71
     2
 49
0.5
 62
   256
  6
BYLAYER
 49
-0.5
 62
   256
  6
BYLAYER
  0
ACDBPLACEHOLDER
  5
F
102
{ACAD_REACTORS
330
E
102
}
330
E
  0
SCALE
  5
48
102
{ACAD_REACTORS
330
47
102
}
330
47
100
AcDbScale
 70
     0
300
1:1
140
1.0
141
1.0
290
     1
  0
SCALE
  5
49
102
{ACAD_REACTORS
330
47
102
}
330
47
100
AcDbScale
 70
     0
300
1:2
140
1.0
141
2.0
290
     0
  0
SCALE
  5
4A
102
{ACAD_REACTORS
330
47
102
}
330
47
100
AcDbScale
 70
     0
300
1:4
140
1.0
141
4.0
290
     0
  0
SCALE
  5
4B
102
{ACAD_REACTORS
330
47
102
}
330
47
100
AcDbScale
 70
     0
300
1:5
140
1.0
141
5.0
290
     0
  0
SCALE
  5
4C
102
{ACAD_REACTORS
330
47
102
}
330
47
100
AcDbScale
 70
     0
300
1:8
140
1.0
141
8.0
290
     0
  0
SCALE
  5
4D
102
{ACAD_REACTORS
330
47
102
}
330
47
100
AcDbScale
 70
     0
300
1:10
140
1.0
141
10.0
290
     0
  0
SCALE
  5
4E
102
{ACAD_REACTORS
330
47
102
}
330
47
100
AcDbScale
 70
     0
300
1:16
140
1.0
141
16.0
290
     0
  0
SCALE
  5
4F
102
{ACAD_REACTORS
330
47
102
}
330
47
100
AcDbScale
 70
     0
300
1:20
140
1.0
141
20.0
290
     0
  0
SCALE
  5
50
102
{ACAD_REACTORS
330
47
102
}
330
47
100
AcDbScale
 70
     0
300
1:30
140
1.0
141
30.0
290
     0
  0
SCALE
  5
51
102
{ACAD_REACTORS
330
47
102
}
330
47
100
AcDbScale
 70
     0
300
1:40
140
1.0
141
40.0
290
     0
  0
SCALE
  5
52
102
{ACAD_REACTORS
330
47
102
}
330
47
100
AcDbScale
 70
     0
300
1:50
140
1.0
141
50.0
290
     0
  0
SCALE
  5
53
102
{ACAD_REACTORS
330
47
102
}
330
47
100
AcDbScale
 70
     0
300
1:100
140
1.0
141
100.0
290
     0
  0
SCALE
  5
54
102
{ACAD_REACTORS
330
47
102
}
330
47
100
AcDbScale
 70
     0
300
2:1
140
2.0
141
1.0
290
     0
  0
SCALE
  5
55
102
{ACAD_REACTORS
330
47
102
}
330
47
100
AcDbScale
 70
     0
300
4:1
140
4.0
141
1.0
290
     0
  0
SCALE
  5
56
102
{ACAD_REACTORS
330
47
102
}
330
47
100
AcDbScale
 70
     0
300
8:1
140
8.0
141
1.0
290
     0
  0
SCALE
  5
57
102
{ACAD_REACTORS
330
47
102
}
330
47
100
AcDbScale
 70
     0
300
10:1
140
10.0
141
1.0
290
     0
  0
SCALE
  5
58
102
{ACAD_REACTORS
330
47
102
}
330
47
100
AcDbScale
 70
     0
300
100:1
140
100.0
141
1.0
290
     0
  0
SCALE
  5
59
102
{ACAD_REACTORS
330
47
102
}
330
47
100
AcDbScale
 70
     0
300
1/128" = 1'-0"
140
0.0078125
141
12.0
290
     0
  0
SCALE
  5
5A
102
{ACAD_REACTORS
330
47
102
}
330
47
100
AcDbScale
 70
     0
300
1/64" = 1'-0"
140
0.015625
141
12.0
290
     0
  0
SCALE
  5
5B
102
{ACAD_REACTORS
330
47
102
}
330
47
100
AcDbScale
 70
     0
300
1/32" = 1'-0"
140
0.03125
141
12.0
290
     0
  0
SCALE
  5
5C
102
{ACAD_REACTORS
330
47
102
}
330
47
100
AcDbScale
 70
     0
300
1/16" = 1'-0"
140
0.0625
141
12.0
290
     0
  0
SCALE
  5
5D
102
{ACAD_REACTORS
330
47
102
}
330
47
100
AcDbScale
 70
     0
300
3/32" = 1'-0"
140
0.09375
141
12.0
290
     0
  0
SCALE
  5
5E
102
{ACAD_REACTORS
330
47
102
}
330
47
100
AcDbScale
 70
     0
300
1/8" = 1'-0"
140
0.125
141
12.0
290
     0
  0
SCALE
  5
5F
102
{ACAD_REACTORS
330
47
102
}
330
47
100
AcDbScale
 70
     0
300
3/16" = 1'-0"
140
0.1875
141
12.0
290
     0
  0
SCALE
  5
60
102
{ACAD_REACTORS
330
47
102
}
330
47
100
AcDbScale
 70
     0
300
1/4" = 1'-0"
140
0.25
141
12.0
290
     0
  0
SCALE
  5
61
102
{ACAD_REACTORS
330
47
102
}
330
47
100
AcDbScale
 70
     0
300
3/8" = 1'-0"
140
0.375
141
12.0
290
     0
  0
SCALE
  5
62
102
{ACAD_REACTORS
330
47
102
}
330
47
100
AcDbScale
 70
     0
300
1/2" = 1'-0"
140
0.5
141
12.0
290
     0
  0
SCALE
  5
63
102
{ACAD_REACTORS
330
47
102
}
330
47
100
AcDbScale
 70
     0
300
3/4" = 1'-0"
140
0.75
141
12.0
290
     0
  0
SCALE
  5
64
102
{ACAD_REACTORS
330
47
102
}
330
47
100
AcDbScale
 70
     0
300
1" = 1'-0"
140
1.0
141
12.0
290
     0
  0
SCALE
  5
65
102
{ACAD_REACTORS
330
47
102
}
330
47
100
AcDbScale
 70
     0
300
1-1/2" = 1'-0"
140
1.5
141
12.0
290
     0
  0
SCALE
  5
66
102
{ACAD_REACTORS
330
47
102
}
330
47
100
AcDbScale
 70
     0
300
3" = 1'-0"
140
3.0
141
12.0
290
     0
  0
SCALE
  5
67
102
{ACAD_REACTORS
330
47
102
}
330
47
100
AcDbScale
 70
     0
300
6" = 1'-0"
140
6.0
141
12.0
290
     0
  0
SCALE
  5
68
102
{ACAD_REACTORS
330
47
102
}
330
47
100
AcDbScale
 70
     0
300
1'-0" = 1'-0"
140
12.0
141
12.0
290
     0
  0
ENDSEC
  0
EOF
